30 Seconds To Mars - The Kill Tab

Zwrotka:

                x4               x4               x4               x4
E|----------------|----------------|----------------|----------------|
H|--------0-------|--------0-------|--------0-------|--------0-------|
G|----------------|----------------|----------------|----------------|
D|----5-------5---|----5-------5---|----5-------5---|----5-------5---|
A|--3---3---------|--5---5---------|--7---7---------|--2---2---------|
E|----------------|----------------|----------------|----------------|



Refren:

E|---------|---------|---------|------------------|
H|---------|---------|---------|------------------|
G|----5----|----5----|----7----|----7-------11----|
D|----5----|----5----|----7----|----7-------11----|
A|----3----|----3----|----5----|----5-------9-----|
E|---------|---------|---------|------------------|
 
E|---------|---------|---------|---------|
H|---------|---------|---------|---------|
G|----9----|----9----|----4----|----4----|
D|----9----|----9----|----4----|----4----|
A|----7----|----7----|----2----|----2----|
E|---------|---------|---------|---------|

Taby i akordy do The Kill - 30 Seconds To Mars . Znajdź najlepsze gitarowe chwyty do The Kill. Zagraj 30 Seconds To Mars The Kill chords.

Zobacz inne opracowania 30 Seconds To Mars
    Skomentuj 30 Seconds To Mars - The Kill Tab
    • (will not be published)