Home » Riff Of The Week » #83 RAGE – Straight To Hell

#83 RAGE – Straight To Hell

riff3_rageUtwór niemieckiego zespołu metalowego, wydany w 2001 roku na albumie Welcome To The Other Side.

 

 

Tab:

D|--------------------|--------------------|-------------------|---------------------|
A|--------------------|--------------------|-------------------|---------------------|
F|--------------------|--------------------|-------------------|---------------------|
C|--------------------|--------------------|-------------------|---------------------|
G|--------------------|--------------------|-------------------|---------------------|
C|-3p0---0---0---3p0--|--0---0--2p0---3p0--|-4p0---0---0--3p0--|--0---0---5p0---6p0--|

D|--------------------|--------------------|-------------------|---------------------|
A|--------------------|--------------------|-------------------|---------------------|
F|--------------------|--------------------|-------------------|---------------------|
C|--------------------|--------------------|-------------------|-------3----2----1---|
G|--------------------|--------------------|-------------------|-------3----2----1---|
C|-7p0---0---0---3p0--|--0---0--2p0---3p0--|--4p0---0---0---0--|---0---3----2----1---|

 

Video:

Skomentuj / Riff Of The Week - 83 RAGE – Straight To Hell
  • (will not be published)