Home » Riff Of The Week » #92 TENACIOUS D – The Metal

#92 TENACIOUS D – The Metal

riff_tendKompozycja wydana w 2006 roku na albumie The Pick of Destiny, na którym znajdują się utwory do filmu o takim samym tytule.

 

 

 

Tab:

E|--------------------------------------|-------------------------------|
H|--------------------------------------|-------------------------------|
G|--------------------------------------|-------------------------------|
D|---2----------------------------------|---2---------------------------|
A|---2--------------3p2p0-2p0-2h3p2p0---|---2--------------3p2p0-2------|
D|---2---2-2-5p2-2----------------------|---2---2-2-5p2-2---------------|

E|--------------------------------------|-----------------------------------|
H|--------------------------------------|-----------------------------------|
G|--------------------------------------|-----------------------------------|
D|---2----------------------------------|---3-----5p3s2-3p2p0-2p0-2h3p2p0---|
A|---2--------------3p2p0-2p0-2h3p2p0---|---3---3---------------------------|
D|---2---2-2-5p2-2----------------------|---3-3-----------------------------|

 

 

Video:

 

Skomentuj / Riff Of The Week - 92 TENACIOUS D – The Metal
  • (will not be published)