Home » Tabulatury i chwyty » A » AC/DC » Back In Black

AC/DC - Back In Black Tab Chords

Zwrotka:

    E           D               A
E|--------------------------------------|-----------------3--0-----------------|
H|--------------3--3--3-----------------|-----------------------3--0-----------|
G|--------------2--2--2---------2--2----|--2--------------------------2b--0----|
D|--2-----------0--0--0---------2--2----|--2-----------------------------------|
A|--2---------------------------0--0----|--0-----------------------------------|
E|--0-----------------------------------|--------------------------------------|

E|--------------------------------------|--------------------------------------|
H|--------------3--3--3-----------------|--------------------------------------|
G|--------------2--2--2---------2--2----|--2-----------------------------------|
D|--2-----------0--0--0---------2--2----|--2-----------------------------------|
A|--2---------------------------0--0----|--0-----------------------------------|
E|--0-----------------------------------|----------7--4---7--5---7--6---7--7/--|

Refren:

	A     E     H    A    H   (x2)      G    D     A    G     A    (x2)
E|-----------------------------------|------------------------------------|
H|-----------------------------------|------------------------------------|
G|------2-----------4----2----4------|-----------7------------------------|
D|------2-----2-----4----2----4------|-----5-----7-----7----------7-------|
A|------0-----2-----2----0----2------|-----5-----5-----7----------7-------|
E|------------0----------------------|-----3-----------5----3^----5-------|

			         (x2)        G        D
E|-----------------------------------|----------------------------|
H|-----------------------------------|----------------------------|
G|------2-----------4----2----4------|----------------7-----------|
D|------2-----2-----4----2----4------|-------5--------7-----------|
A|------0-----2-----2----0----2------|-------5--------5-----------|
E|------------0----------------------|-------3--------------------|

Taby i akordy do Back In Black - AC/DC . Znajdź najlepsze gitarowe chwyty do Back In Black. Zagraj AC/DC Back In Black chords.

Skomentuj AC/DC - Back In Black Tab Chords
  • (will not be published)