Home » Tabulatury i chwyty » A » Angus & Julia Stone » All This Love

Angus & Julia Stone - All This Love Tab Chords


kap. I  (sprawdź ceny / kup kapodaster)


Zwrotka:

    h                            A                             G                         x2
E|----------------------------|-----------------------------||----------------------------||
H|----------------------------|-----------------------------||----------------------------||
G|------4-----4-----4-----4---|-------2-----2-----2-----2---||-------0-----0-----0----0---||
D|----------------------------|-----------------------------||----------------------------||
A|---2-----2-----2-----2------|---0-----0-----0-----0-------||---2-----2-----2-----2------||
E|----------------------------|-----------------------------||----------------------------||


Refren:

    D                            A                             G                    (A)  x2
E|----------------------------|-----------------------------||----------------------------||
H|----------------------------|-----------------------------||----------------------------||
G|------7-----7-----7-----7---|-------2-----2-----2-----2---||-------0-----0-----0----0---||
D|----------------------------|-----------------------------||----------------------------||
A|--/5-----5-----5-----5------|---0-----0-----0-----0-------||---2-----2-----2-----2------||
E|----------------------------|-----------------------------||----------------------------|| 

Taby i akordy do All This Love - Angus & Julia Stone . Znajdź najlepsze gitarowe chwyty do All This Love. Zagraj Angus & Julia Stone All This Love chords.

Zobacz inne opracowania Angus & Julia Stone
    Skomentuj Angus & Julia Stone - All This Love Tab Chords
    • (will not be published)