Arctic Monkeys - Arabella Tab Chords

Zwrotka:

E|-------------5-------------|
H|----5--7--8-----8--7--5----|
G|---------------------------| 
D|---------------------------|
A|---------------------------|
E|---------------------------|

     D5  E5  A5  G5  x3    D5  E5    
E|--------------------|-----------|
H|--------------------|-----------|
G|----7--9------------|----7--9---|
D|----7--9---7---5----|----7--9---|
A|----5--7---7---5----|----5--7---|
E|-----------5---3----|-----------|


Refren:

E|---------------------------------------|
H|---------------------------------------|
G|---7-9--12--7-9-14--7-9-12--12-9--16---|
D|---7-9--12--7-9-14--7-9-12--12-9--16---|
A|---5-7--10--5-7-12--5-7-10--10-7--14---|
E|---------------------------------------|


Tanie gitary elektryczne i akustyczne porównaj ceny w Nokaut - porównaj ceny w Ceneo

Taby i akordy do Arabella - Arctic Monkeys . Znajdź najlepsze gitarowe chwyty do Arabella. Zagraj Arctic Monkeys Arabella chords.

Skomentuj opracowanie
  • (will not be published)


− sześć = 3