Home » Tabulatury i chwyty » A » Arctic Monkeys » Do I Wanna Know

Arctic Monkeys - Do I Wanna Know Tab



E|----------|
H|----------|
G|----------|
D|----------|
A|-------1--|
E|---1-3--3-|

E|--------------------------------------------|
H|--------------------------------------------|
G|--------------------------------------------|
D|---------1h3-1---------0--------------------|
A|-------1-----3h5-3--1-3-3---1/3--3h5-3h5----|
E|---1-3-----------------------------------3--|


E|----------|
H|----------|
G|----------|
D|----------|
A|-------1--|
E|---1-3--3-|

E|--------------------------------------------------------------------|
H|--------------------------------------------------------------------|
G|--------------------------------------------------------------------|
D|---------1h3-1---------0---------5/1------------------0-------0-0---|
A|-------1-----3h5-3--1-3-3~/5----------3-5-6--5-3--1-3--3---1-3------|
E|---1-3-----------------------------------------------------------3--|

Taby i akordy do Do I Wanna Know - Arctic Monkeys . Znajdź najlepsze gitarowe chwyty do Do I Wanna Know. Zagraj Arctic Monkeys Do I Wanna Know chords.

Skomentuj Arctic Monkeys - Do I Wanna Know Tab
  • (will not be published)