Home » Tabulatury i chwyty » B » Beatles » Blackbird

Beatles - Blackbird Tab Chords

Blackbird singing...

     G       Am7     G
E|---------------------------|-----------------------------------|
B|---0-------1-------3-------|---12----12--12----12----12--12----|
G|-------0-------0-------0---|-------0-------0-------0-------0---|
D|---------------------------|-----------------------------------|
A|-----------0-------2-------|---10------10------10------10------|
E|---3-----------------------|-----------------------------------|

Take these broken...

      C       A7/C#   D       H7/D#       Em              Cm/Eb
E |-----------------------------------|-----------------------------------|
B |---5-------8-------7-------10------|---8-----8---8-----8-----8---8-----|
G |-------0-------0-------0-------0---|-------0-------0-------0-------0---|
D |-----------------------------------|-----------------------------------|
A |---3-------4-------5-------6-------|---7-------7-------6-------6-------|
E |-----------------------------------|-----------------------------------|

All your...


   D   Em  C           Cm          G
e|---------------------------------------------|
B|-7---8---5-------5---4-------4---3-------3---|
G|---0---0---0---0---0---0---0---0---0---0---0-|
D|---------------------------------------------|
A|-5---7---3---3-------3---3-------2---2-------|
E|---------------------------------------------|

   A7          Am7          G
e|---------------------------|
B|-2-------2---1-------1---0-|
G|---0---0---0---0---0---0---|
D|-------------0---0---------|
A|-0---0---------------------|
E|-------------------------3-|

e|-----------------------------------|
B|-5---3---2-------2---1-------1---0-|
G|---0---0---0---0---0---0---0---0---|
D|---------------------0---0---------|
A|-3---2---0---0-------------------3-|
E|-----------------------------------|

Blackbird fly...

   F   Em   Dm   C  A#         C
e|------------------------------------------|
B|-10---8---6---5---3-------3---5-------5---|
G|----0---0---0---0---0---0---0---0---0---0-|
D|------------------------------------------|
A|-8----7---5---3---1---1-------3---3-------|
E|------------------------------------------|

e|------------------------------------------------------|
B|-10---8---6---5---3-------3---2-------2---1-------1---|
G|----0---0---0---0---0---0---0---0---0---0---0---0---0-|
D|------------------------------------------0---0-------|
A|-8----7---5---3---1---1-------0---0-------------------|
E|------------------------------------------------------|

Taby i akordy do Blackbird - Beatles . Znajdź najlepsze gitarowe chwyty do Blackbird. Zagraj Beatles Blackbird chords.

Skomentuj Beatles - Blackbird Tab Chords
  • (will not be published)