Home » Tabulatury i chwyty » B » Beatles » Come Together

Beatles - Come Together Bas


G|------------------10---------------|
D|---------------------------12\-----|   główny riff
A|-----------10/12-------------------|
E|---10--10--------------------------|




G|-------------5--------------|--------------5-------------|-----------|
D|--------------------7\------|--------------------7\------|-----------|
A|----------------------------|----------------------------|-----------|
E|--5---5---------------------|--5---5---------------------|-----3-----|

G|----------------------------------|----------------------------------|
D|----------------------------------|----------------------------------|
A|----------------------------------|----------------------------------|
E|--7---7---7---7---7---7---5---5---|--3---3---3---3---5---------------|

G|-----------------10---------------|-----------------10-------10h12---|
D|--------------------------12\-----|----------------------------------|
A|----------10/12-------------------|----------10/12-------------------|
E|--10--10--------------------------|--10--10--------------------------|

G|----------------------------------|----------------------------------|
D|----------------------------------|----------------------------------|
A|----------------------------------|----------------------------------|
E|--10--10--10--10--10--10--10--10--|--10--10--10--10--10--10--10--10--|

G|----------------------------------|----------------------------------|
D|----------------------------------|----------------------------------|
A|----------------------------------|----------------------------------|
E|--10--10--10--10--10--10--10--10--|--10--10--10--10--10--10--10--10--|

G|----------------------------------|----------------------------------|
D|----------------------------------|----------------------------------|
A|----------------------------------|----------------------------------|
E|--5---5---5---5---5---5---5---5---|--5---5---5---5---5---5---5---5---|

G|----------------------------------|----------------------------------|
D|----------------------------------|----------------------------------|
A|----------------------------------|----------------------------------|
E|--5---5---5---5---5---5---5---5---|--5---5---5---5---5---5---5---5---|

Taby i akordy do Come Together - Beatles . Znajdź najlepsze gitarowe chwyty do Come Together. Zagraj Beatles Come Together chords.

Skomentuj Beatles - Come Together Bas
  • (will not be published)