Home » Tabulatury i chwyty » B » Ben E.King » Stand By Me

Ben E.King - Stand By Me Tab Chords

| A | A | f# | f# |

| D | E | A  | A  |


                  A                                            f#
E|-------------|---------------------|----------------------|--------------------|
H|-------------|---------------------|----------------------|--------------------|
G|-------------|---------------------|----------------------|--------------------|
D|--------6----|--7-----7------------|--7-----7-----7--6----|--------------------|
A|-----7-------|---------------7-----|----------------------|--9-----9-----7-----|
E|-------------|---------------------|----------------------|--------------------|

                          D                       E                      A
E|----------------------|----------------------|----------------------|----------|
H|----------------------|----------------------|----------------------|----------|
G|----------------------|----------------------|----------------------|----------|
D|----------------------|----------------------|-----------------6----|--7-------|
A|--9-----9-----9--7----|--5-----5-----5--9----|--7-----7-----7-------|----------|
E|----------------------|----------------------|----------------------|----------|
Tanie gitary elektryczne i akustyczne porównaj ceny w Nokaut - porównaj ceny w Ceneo

Taby i akordy do Stand By Me - Ben E.King . Znajdź najlepsze gitarowe chwyty do Stand By Me. Zagraj Ben E.King Stand By Me chords.

Zobacz inne opracowania Ben E.King
    Skomentuj opracowanie
    • (will not be published)


    + 7 = dziesięć