Home » Tabulatury i chwyty » B » Biesiadne » Była Sobie Żabka Mała

Biesiadne - Była Sobie Żabka Mała Tab

E|----------------------------------------------------------|
H|----------------------------------------------------------|
G|---------------0--0--0--------------------------0--0------|
D|------------2-----------2----0--0--3--3---2--2------------|
A|---3--3--3------------------------------------------------|
E|----------------------------------------------------------|

E|----------------------------------------------------|
H|----------------------------------------------------|
G|---------------0--0--0-------0----------------------|
D|------------2-----------2--------3---2---0----------|
A|---3--3--3-----------------------------------3------|
E|----------------------------------------------------|

Taby i akordy do Była Sobie Żabka Mała - Biesiadne . Znajdź najlepsze gitarowe chwyty do Była Sobie Żabka Mała. Zagraj Biesiadne Była Sobie Żabka Mała chords.

Skomentuj Biesiadne - Była Sobie Żabka Mała Tab
  • (will not be published)