Home » Tabulatury i chwyty » B » Black Keys » Gold On The Ceiling

Black Keys - Gold On The Ceiling Tab Chords

Intro:

E|--------------------------------------------------------------------------------|
H|--------------------------------------------------------------------------------|
G|--------------------------------------------------------------------------------|
D|----------12\10---------12-10--------7\5--------7-5---------3------------5------|
A|--10--10----------8--8---------5--5-------3--3--------1--1 ----1---3--3-----3---|
E|--------------------------------------------------------------------------------|

     G5
E|------------------------------|
H|------------------------------|
G|--------------------------0---|
D|--------------------------0---|
A|---5-5---5-5---5-5----3---1---|
E|---3-3---3-3---3-3------------|

 

Zwrotka:

G5  F5  C5  G5

 

F5 E5  G5

 

E|------------------------------------------------|
H|------------------------------------------------|
G|---------5-5------------------------5-5---------|
D|---3-3---5-5---5-5--3--5------3-3---5-5---3-5---|
A|---3-3---3-3---5-5--3--5------3-3---3-3---3-5---|
E|---1-1---------3-3--1--3------1-1---------1-3---|


Taby i akordy do Gold On The Ceiling - Black Keys . Znajdź najlepsze gitarowe chwyty do Gold On The Ceiling. Zagraj Black Keys Gold On The Ceiling chords.

Skomentuj Black Keys - Gold On The Ceiling Tab Chords
  • (will not be published)