Black Keys - Lies Tab Chords

Intro:

                   Gm
E|----------------------------------------------------------------------|
H|----------------------------------------------------------------------|
G|---7-7-7--\6\5----------3h5p3---------4/7\6\5-----------3h5p3---------|
D|---8-8-8--\7\6--------5-------5-------5/8\7\6--------5---------5------|
A|---8-8-8--\7\6------5-----------5-----5/8\7\6------5--------------5---|
E|------------------3------------------------------3--------------------|

 

Zwrotka:

    Gm                 Dm                Gm              Dm 
E|-----------------------------------------------------------------5~----|
H|---------------------------6h8p6---------------------------------6~----|
G|---------3h5p3-----------7-------7-----------3h5p3-----------7---7~----|
D|-------5-------5-------7-----------7-------5-------5-------7-----------|
A|-----5-----------5---5-------------------5-----------5---5-------------|
E|---3-----------------------------------3-------------------------------|

    Cm                    x2   Gm               x2
E|--------------------------|---------------------|
H|--------------------------|---------------------|
G|-----------8h10p8---------|---------3h5p3-------|     x2
D|--------10--------10------|-------5-------5-----|
A|-----10--------------10---|-----5-----------5---|
E|---8----------------------|---3-----------------|

 

Refren:

G5   D5 F5  C5  D5 C5


Taby i akordy do Lies - Black Keys . Znajdź najlepsze gitarowe chwyty do Lies. Zagraj Black Keys Lies chords.

Skomentuj Black Keys - Lies Tab Chords
  • (will not be published)