Black Sabbath - Loner Tab


E|-----------------------------------------------|
H|-----------------------------------------------|
G|-----------------------------------------------|
D|----------12--------------------12-------------|
A|---14-14--10---12-12-14--14-14--10--12-14-12---|
E|---12-12-------10-10/12--12-12------10/12-10---|

E|------------------------------------------|
H|------------------------------------------|
G|------------------------------------------|
D|----------12-------------------14-13-12---|
A|---14-14--10--12-12-14--14-14--12-11-10---|
E|---12-12------10-10/12--12-12-------------|

Taby i akordy do Loner - Black Sabbath . Znajdź najlepsze gitarowe chwyty do Loner. Zagraj Black Sabbath Loner chords.

Skomentuj Black Sabbath - Loner Tab
  • (will not be published)