Home » Tabulatury i chwyty » B » Bon Jovi » Always

Bon Jovi - Always Tab



Intro:

e|----------------------------------------------------
B|----------------------------------------------------
G|----------2--------6---4---2------------------------
D|-2--------2--------6---4---2------------------------
A|-2--------0--------4---2---0------------------------
E|-0--------------------------------------------------


Zwrotka:

e|---------------------------------------------
B|---------------------------------------------
G|-6--------4--------2--------4-------2----4---
D|-6--------4--------2--------4-------2----4---
A|-4--------2--------0--------2-------0----2---
E|-4-------------------------------------------


Refren:

e|------------------------|------------|---------------------
B|------------------------|------------|---------------------
G|----------4--------2----|-6------4---|-4------2----4----6--
D|-2--------4--------2----|-6------4---|-4------2----4----6--
A|-2--------2--------0----|-4------2---|-2------0----2----4--
E|-0----------------------|------------|---------------------


Bridge:

e|--------------------------------------------
B|--------------------------------------------
G|-------7---------7--------------------------
D|-------7---------7--------5---------7-------
A|-5--5--5--5-5-5--5--------5---------7-------
E|--------------------3--3--3--5-5-5--5-------

Taby i akordy do Always - Bon Jovi . Znajdź najlepsze gitarowe chwyty do Always. Zagraj Bon Jovi Always chords.

Skomentuj Bon Jovi - Always Tab
  • (will not be published)