Home » Tabulatury i chwyty » B » Brathanki » Gdzie Ten Który Powie Mi

Brathanki - Gdzie Ten Który Powie Mi Tab


E|-------------------------------------------------|
B|-------------------------------------------------|
G|----------------------6--7--6--7--8--7-----------|      x2
D|----------7--8--7--8--------------------10-8--7--|
A|-10-9--10----------------------------------------|
E|-------------------------------------------------|


E|----------5--6--5-----------------5--8--6--5-----|---6--5--6--5------------------|
B|-8--7--8-----------8-----6--5--6--------------6--|----------------8--------------|
G|----------------------8--------------------------|-------------------------------|
D|-------------------------------------------------|------------------------8--7---|
A|-------------------------------------------------|------------------------6--5---|
E|-------------------------------------------------|-------------------------------|

Taby i akordy do Gdzie Ten Który Powie Mi - Brathanki . Znajdź najlepsze gitarowe chwyty do Gdzie Ten Który Powie Mi. Zagraj Brathanki Gdzie Ten Który Powie Mi chords.

Zobacz inne opracowania Brathanki
    Skomentuj Brathanki - Gdzie Ten Który Powie Mi Tab
    • (will not be published)