Home » Tabulatury i chwyty » B » Breakout » Oni Zaraz Przyjdą Tu

Breakout - Oni Zaraz Przyjdą Tu Tab Chords


E|--------------------------------|
H|--------------------------------|
G|----5h7--7-7-7--7--5------------|  
D|----------------------7---------|    
A|------------------------7--5----|
E|--------------------------------|


    D5                   riff
Jak ładnie ci... 

    G5                   riff
Jak ładnie ci... 

    A5              G5
Lubiłaś światło... 

E|------------------------------|
H|------------------------------|
G|------------10----------------|  
D|----10--12------12--10--12----|    
A|------------------------------|
E|------------------------------|

Taby i akordy do Oni Zaraz Przyjdą Tu - Breakout . Znajdź najlepsze gitarowe chwyty do Oni Zaraz Przyjdą Tu. Zagraj Breakout Oni Zaraz Przyjdą Tu chords.

Skomentuj Breakout - Oni Zaraz Przyjdą Tu Tab Chords
  • (will not be published)