Home » Tabulatury i chwyty » B » Bryan Adams » Summer Of 69

Bryan Adams - Summer Of 69 Tab Chords


D A

 

h A D G  x2

h A

 

E|-----------14-------15-------14--------------14--------|
H|--17-15-------15-------15-------15-----17-15----15-----|
G|--------14-------14-------14-------15------------------|
D|-------------------------------------------------------|
A|-------------------------------------------------------|
E|-------------------------------------------------------|
    

E|-----------9~-------10~------9~-------------9----------|
H|-12--10-------10-------10-------10----12-10----10------|
G|--------9--------9--------9--------9-------------------|
D|-------------------------------------------------------|
A|-------------------------------------------------------|
E|-------------------------------------------------------|

Taby i akordy do Summer Of 69 - Bryan Adams . Znajdź najlepsze gitarowe chwyty do Summer Of 69. Zagraj Bryan Adams Summer Of 69 chords.

Skomentuj Bryan Adams - Summer Of 69 Tab Chords
  • (will not be published)