Home » Tabulatury i chwyty » B » Bryan Adams » When You’re Gone

Bryan Adams - When You’re Gone Tab Chords

Kapo. III

Intro/Refren:

| Hm | D | A | E | x3

     E
E|--------------------------|
H|--------------------------|
G|--------------------------|
D|--------------------------|
A|---2--2--2--4--2--4--2----|
E|---0--0--0--0--0--0--0----|

| Hm | G | E | Esus4 |



Zwrotka:

| Hm | E | A | A |  x3

     A
E|---------------------------|
H|---2----2h3----2h3----2----|
G|---2----2------2------2----|
D|---2----2h4----2h4----2----|
A|---------------------------|
E|---------------------------|


| Hm | G | E | Esus4 |

Taby i akordy do When You’re Gone - Bryan Adams . Znajdź najlepsze gitarowe chwyty do When You’re Gone. Zagraj Bryan Adams When You’re Gone chords.

Skomentuj Bryan Adams - When You’re Gone Tab Chords
  • (will not be published)