Home » Tabulatury i chwyty » B » Budka Suflera » Jolka Jolka

Budka Suflera - Jolka Jolka Tab Chords

Intro:

    D
E|--2--------2--2--------2--|--2--------2--2--------2--|
H|--------------------------|--------------------------|
G|--------2-----------2-----|--------2-----------2-----|
D|-----0-----------0--------|-----0-----------0--------|
A|--------------------------|--------------------------|
E|--------------------------|--------------------------|

Zwrotka:

    D            A             h
E|-----------2---------------|----------------------------|
H|--------3--------------2---|-----------3-----------3----|
G|-----2--------------2------|--------4------------4------|       x3
D|--0--------------2---------|-----4------------4---------|
A|--------------0------------|--2-----------2-------------|
E|---------------------------|----------------------------|

    D           A              G
E|-----------2---------------|----------------------------|----------------------------|
H|--------3--------------2---|-----------3-----------3----|-----------3-----------3----|
G|-----2--------------2------|--------0------------0------|--------0------------0------|
D|--0--------------2---------|-----0------------0---------|-----0------------0---------|
A|--------------0------------|----------------------------|----------------------------|
E|---------------------------|--3-----------3-------------|--3-----------3-------------|

  h
E|----------------------------|
H|-----------3-----------3----|
G|--------4------------4------|       x2  (przed refrenem)
D|-----4------------4---------|
A|--2-----------2-------------|
E|----------------------------|

Refren:

       e         D
E|-----7----|----5-----|
H|-----8----|----7-----|
G|-----9----|----7-----|    x3
D|-----9----|----7-----|
A|-----7----|----5-----|
E|----------|----------|

       G         A
E|-----3----|----5-----|
H|-----3----|----5-----|
G|-----4----|----6-----|
D|-----5----|----7-----|
A|-----5----|----7-----|
E|----------|----------|

Taby i akordy do Jolka Jolka - Budka Suflera . Znajdź najlepsze gitarowe chwyty do Jolka Jolka. Zagraj Budka Suflera Jolka Jolka chords.

Skomentuj Budka Suflera - Jolka Jolka Tab Chords
  • (will not be published)