Home » Tabulatury i chwyty » B » Budka Suflera » Martwe Morze

Budka Suflera - Martwe Morze Tab Chords


Intro:

E|--------|---------0---3-----2-----------------|-0-------0---------------0---2---|
B|--------|-----0-------------3-------3---------|-0---------------3---------------|
G|--------|-------------------2-----------------|-0---------------2---------------|
D|--------|-------------2---------2-------2-----|-----2-------2---4---2-----------|
A|--------|-------------------------------------|---------------------------------|
E|--------|-0-----------------0-----------------|-0-------------------------------|


E|-3-------3-------2--------------|--------------------------------|-----0-------0-------|
B|-0-----------------------3------|-0-------3-------1-------0------|-0-----------0---4---|
G|-----------------2--------------|-----0-------0-------2-------2--|-0-----------2-------|
D|-----2-------2-------4-------4--|--------------------------------|---------------------|
A|--------------------------------|-----------------0--------------|-2-------2---2-------|
E|-0---------------2--------------|-3------------------------------|---------------------|


E|---------------0---------------------|---------------0----------------------|
B|---------------0-------3-------------|-0------------------------------------|
G|---------------0-------2-------------|--------------------------------------|
D|-----2-----2-------2---4---2-----2---|-----2-----2--------2-----2-----2-----|
A|-------------------------------------|--------------------------------------|
E|-0-----------------------------------|--------------------------------------|



Zwrotka:

e  G  H7  e

e  G  D



Refren:

a  G  D   x2

a  G  H7  e

e  D  e

e  D  G  a

a  H7  e

Taby i akordy do Martwe Morze - Budka Suflera . Znajdź najlepsze gitarowe chwyty do Martwe Morze. Zagraj Budka Suflera Martwe Morze chords.

Skomentuj Budka Suflera - Martwe Morze Tab Chords
  • (will not be published)