Home » Tabulatury i chwyty » B » Budka Suflera » Takie Tango

Budka Suflera - Takie Tango Tab Chords



Intro:

E|----------------------------------------------------------6^---------
B|----4-6-/7\6-4-----7\6-4-0------3-4-6-3-4~~----4-6-/7\6-4----7\6-4-0-
G|--3------------3--------------3--------------3-----------------------
D|---------------------------------------------------------------------
A|---------------------------------------------------------------------
E|---------------------------------------------------------------------

E|-------------------
B|----3-4-6-3-4~~----
G|--3----------------
D|-------------------
A|-------------------
E|-------------------


Zwrotka:

Na sali...    d C d C      
              B A d        
              d C d C      
              B A d   

Nie będzie...    d B          
                 g A d

Chociaż płyną...   g            
                   g F C        
                   g            
                   g F C   


Refren:    

Bo do tanga...   d C d C      
                 d C d C      
                 d C d C      
                 d C d

Taby i akordy do Takie Tango - Budka Suflera . Znajdź najlepsze gitarowe chwyty do Takie Tango. Zagraj Budka Suflera Takie Tango chords.

Skomentuj Budka Suflera - Takie Tango Tab Chords
  • (will not be published)