Home » Tabulatury i chwyty » C » Coma » Sto Tysięcy Jednakowych Miast

Coma - Sto Tysięcy Jednakowych Miast Tab

dropped


D#|----------------------|----------------------|----------------------|--------------|
A#|----------------------|----------------------|----------------------|--------------|
F#|--------0-------------|--------0-------------|--------0-------------|--------------|
C#|------------4---4--0--|------------4---4--0--|------------4---4--0--|----4--0--2---|
G#|----2-------5---------|----2-------5---------|----2-------5---------|-5--------0---|
C#|-2--------------------|-2--------------------|-2--------------------|-5------------|


D#|-----------------|-----------------|--------|--------|
A#|-----------------|-----------------|--------|--------|
F#|-5-----5-----5---|-5-----5-----5---|--------|--------|
C#|-5-----5-----5---|-5-----5-----5---|-2------|-2------|
G#|-3-----3-----3---|-3-----3-----3---|-2------|-2------|
C#|-----------------|-----------------|-2------|-2------|


Outro:

D#|-------------------------|
A#|-------------------------|
F#|-------------------------|
C#|-2-----0-----0-----------|
G#|-2-----0-----0--0--0--0--|
C#|-2-----0-----0--0--0--0--|

Taby i akordy do Sto Tysięcy Jednakowych Miast - Coma . Znajdź najlepsze gitarowe chwyty do Sto Tysięcy Jednakowych Miast. Zagraj Coma Sto Tysięcy Jednakowych Miast chords.

Skomentuj Coma - Sto Tysięcy Jednakowych Miast Tab
  • (will not be published)