Creedence Clearwater Revival - Down On The Corner Tab Chords

Zwrotka:

| C | G C |

E|--------------------------------------------------|
H|--------------------------------------------------|
G|--------------------------------------------------|
D|--------------------------------------------------|
A|----3-----------3--3----------------2---3--3------|
E|--------5----3----------5--3---3------------------|

 

| F | C |

E|--------------------------------------------------|
H|--------------------------------------------------|
G|--------------------------------------------------|
D|----3-----------3--3----------------2---5--5------|
A|--------5----3----------5--3---3------------------|
E|--------------------------------------------------|


 

Refren:

| F C | G C |

Taby i akordy do Down On The Corner - Creedence Clearwater Revival . Znajdź najlepsze gitarowe chwyty do Down On The Corner. Zagraj Creedence Clearwater Revival Down On The Corner chords.

Skomentuj Creedence Clearwater Revival - Down On The Corner Tab Chords
  • (will not be published)