Creedence Clearwater Revival - Fortunate Son Tab Chords


Intro:

1 gitara:

--------3--------1-----------------------
---------------------------5----------3--
--2/4-------1/2--------------------------
----------------------3/5-------3/5------
-----------------------------------------
-----------------------------------------

później 2 gitara:

------------
------------
------------
---3---0----
------------
------------


Zwrotka:

 G      F
Some...made...
 C     G
Ooh...blue
  G          F
And when...hail to...
 C     G
Ooh...you...


Refren:

G    D      C       G
It...It...I aint...son...
G    D      C       G
It...It...I aint...one...

Taby i akordy do Fortunate Son - Creedence Clearwater Revival . Znajdź najlepsze gitarowe chwyty do Fortunate Son. Zagraj Creedence Clearwater Revival Fortunate Son chords.

Skomentuj Creedence Clearwater Revival - Fortunate Son Tab Chords
  • (will not be published)