Dave Matthews Band - Some Devil Tab


e|--------------------------------------------------------------|
B|--------------------------------------------------------------|
G|---------8-8\6---------6-6\4--4-------------------------------|
D|---------9-9\7---------7-7\6--6--------------5----------5-----|
A|------------------------------------------5----------5--------|
E|-----7--------------5---------------0--3----------5-----------|


    D5                 H5       A5         G                A                 
e|---------------------------------------------------------------------|
B|---------------------------------------------------------------------|
G|------7---------7--------4--------2------------4-----------------6---|  
D|----7---7-----7---7----4---4----2---2--------5---5-------------7-----|
A|--5---------4--------2--------0------------5-------5---------7-------|
E|-----------------------------------------3-----------3----5----------|
    "You said always and forever..."

Taby i akordy do Some Devil - Dave Matthews Band . Znajdź najlepsze gitarowe chwyty do Some Devil. Zagraj Dave Matthews Band Some Devil chords.

Zobacz inne opracowania Dave Matthews Band
    Skomentuj Dave Matthews Band - Some Devil Tab
    • (will not be published)