Dave Stewart & Candy Dulfer - Lily Was Here Tab



E|---------------------|-----------------------------|
H|-----0---------------|----0------------------------|
G|--------0---2--------|-------0---2-----------------|
D|----------------2----|--------------2/4---5-4-2----|
A|---------------------|-----------------------------|
E|---------------------|-----------------------------|

E|----------10----------|-----------10-------------------|
H|-------8---------8----|--------8---------8h10--10/12---|
G|---/9---------9-------|----/9---------9----------------|
D|----------------------|--------------------------------|
A|----------------------|--------------------------------|
E|----------------------|--------------------------------|

E|------15-15-14-----|-----15-15-14-14-12-12-----------|
H|---12---------12---|--12------------------15--15b----|
G|-------------------|---------------------------------|
D|-------------------|---------------------------------|
A|-------------------|---------------------------------|
E|-------------------|---------------------------------|


Taby i akordy do Lily Was Here - Dave Stewart & Candy Dulfer . Znajdź najlepsze gitarowe chwyty do Lily Was Here. Zagraj Dave Stewart & Candy Dulfer Lily Was Here chords.

Zobacz inne opracowania Dave Stewart & Candy Dulfer
    Skomentuj Dave Stewart & Candy Dulfer - Lily Was Here Tab
    • (will not be published)