Home » Tabulatury i chwyty » D » David Bowie » Lets Dance

David Bowie - Lets Dance Tab

Intro:

E|----------|----9----|
H|-----8----|----8----|
G|-----8----|----8----|
D|-----8----|----8----|
A|-----6----|----6----|
E|----------|---------|



Zwrotka:

E|----11---|----9----|----9----|----9-----|
H|----11---|----11---|----11---|----11----|
G|----10---|----10---|----11---|----10----|
D|----8----|----8----|----11---|----8-----|
A|---------|---------|---------|----------|
E|---------|---------|---------|----------|



Refren:

E|-11-----|-11-----|-------------|-------------|-11-----|-11-----|
B|-13-----|-13-----|-9-----11----|-9-----11----|-13-----|-13-----|
G|-13-----|-13-----|-10----12----|-10----12----|-13-----|-13-----|
D|-13-----|-13-----|-11----13----|-11----13----|-13-----|-13-----|
A|-11-----|-11-----|-11----13----|-11----13----|-11-----|-11-----|
E|--------|--------|-9-----11----|-9-----11----|--------|--------|

E|-------------|-------------|-11-----|--------|--------|
B|-9-----11----|-9-----11----|-13-----|-9------|-9------|
G|-10----12----|-10----12----|-13-----|-10-----|-10-----|
D|-11----13----|-11----13----|-13-----|-10-----|-11-----|
A|-11----13----|-11----13----|-11-----|-8------|-11-----|
E|-9-----11----|-9-----11----|--------|--------|-9------|

Taby i akordy do Lets Dance - David Bowie . Znajdź najlepsze gitarowe chwyty do Lets Dance. Zagraj David Bowie Lets Dance chords.

Skomentuj David Bowie - Lets Dance Tab
  • (will not be published)