Home » Tabulatury i chwyty » D » Deep Purple » Smoke On The Water

Deep Purple - Smoke On The Water Tab Chords

Intro:

      G    A#   C          G    A#  C#  C         G     A#  C  A#   G
E|--------------------|----------------------|----------------------------|
H|--------------------|----------------------|----------------------------|
G|---------3----5-----|---------3---6---5----|----------3---5---3---------|
D|----5----3----5-----|----5----3---6---5----|----5-----3---5---3---5-----|
A|----5----1----3-----|----5----1---4---3----|----5-----1---3---1---5-----|
E|----3---------------|----3-----------------|----3-----------------3-----|


Zwrotka:

    G
E|----------------|
H|----------------|
G|----------------|     x4
D|--------5-------|
A|-----5----------|
E|--3-------------|

   G          F         G
E|--------------------------------------------|
H|--------------------------------------------|
G|--------------------------------------------|
D|--------5---------3---------5---------5-----|
A|-----5---------3---------5---------5--------|
E|--3---------1---------3---------3-----------|



Refren:

      C     G#
E|------------------|-----------------------------------|-----------------------------|
H|------------------|-----------------------------------|-----------------------------|
G|----5-------------|--------3-------3------------------|--------3-------3------------|
D|----5-----6-------|----5-------5-------5----3----5----|----5-------5-------5---3----|
A|----3-----6-------|-----------------------------------|-----------------------------|
E|----------4-------|-----------------------------------|-----------------------------|

Taby i akordy do Smoke On The Water - Deep Purple . Znajdź najlepsze gitarowe chwyty do Smoke On The Water. Zagraj Deep Purple Smoke On The Water chords.

Skomentuj Deep Purple - Smoke On The Water Tab Chords
  • (will not be published)