Home » Tabulatury i chwyty » D » Dezerter » Burdel

Dezerter - Burdel Bas


Zwrotka:

----------------------------|     X3
----------------------------|
-------5-5-5-5-5-5----6-6---|
----------------------------|


---------------------------|
---------------------------|
------5-5--8-8--7-7--------|
----------------------8--8-|


Refren:

------------------------            --------|
------------------------            --------|
-------5-5-5-5-5-5--6-6-    X2       -4-4-4-|
------------------------            --------|

Taby i akordy do Burdel - Dezerter . Znajdź najlepsze gitarowe chwyty do Burdel. Zagraj Dezerter Burdel chords.

Zobacz inne opracowania Dezerter
Skomentuj Dezerter - Burdel Bas
  • (will not be published)