Home » Tabulatury i chwyty » D » Dezerter » Ku Przyszłości

Dezerter - Ku Przyszłości Bas


Zwrotka:

---------------------------------------|-----------------------------| X3
---------------------------------------|-----------------------------|
---------------------------------------|-----------------------------|
--------0------7---7---7---7---7---7---|---8-----5-----8-----3-------|


---------------------------------------|-----------------------------| X1
---------------------------------------|-----------------------------|
---------------------------------------|-----------------------------|
--------0------7---7---7---7---7---7---|---8----------1---1---1------| 


---------------------------------------|-----------------------------| X4
---------------------------------------|-----------------------------|
---------------------------------------|-----------------------------|
--------0------7---7---7---7---7---7---|---8-----5-----8-----3-------|


Refren:

----------------------------------------|----------------------------------| X3
----------------------------------------|----------------------------------|
----------------------------------------|----------------------------------|
--------5---5---5---5---5---5---5---5---|---3---3---3---3---3---3---3---3--|

Taby i akordy do Ku Przyszłości - Dezerter . Znajdź najlepsze gitarowe chwyty do Ku Przyszłości. Zagraj Dezerter Ku Przyszłości chords.

Zobacz inne opracowania Dezerter
Skomentuj Dezerter - Ku Przyszłości Bas
  • (will not be published)