Home » Tabulatury i chwyty » D » Disturbed » Decadence

Disturbed - Decadence Tab


Intro/główny riff:

eb|-------------------------------------------------|
Bb|-------------------------------------------------|
Gb|-------------------------------------------------|
Db|-------------------------------------------------|
Ab|--------------------5-----------3-----------2----|
Db|--3--2--0--2--0--2-----2--0--2-----2--0--2-----0-|

Zwrotka:

eb|---------------------------------------------------|
Bb|---------------------------------------------------|
Gb|---------------------------------------------------|
Db|---------------------------------------------------|
Ab|--3-2-0--0--2--0--2--3-2-0--0--2--0--2--3--2--0----|
Db|--3-2-0--0--2--0--2--3-2-0--0--2--0--2--3--2--0----|

Refren:

eb|-------------------------------------------------|
Bb|-------------------------------------------------|
Gb|--------------------5--------5-----5--5--5--5--5-|
Db|--2--------2--------5--------5-----5--5--5--5--5-|
Ab|--2--------2--------3--------3-----3--3--3--3--3-|
Db|--2--------2-------------------------------------|

Taby i akordy do Decadence - Disturbed . Znajdź najlepsze gitarowe chwyty do Decadence. Zagraj Disturbed Decadence chords.

Zobacz inne opracowania Disturbed
    Skomentuj Disturbed - Decadence Tab
    • (will not be published)