Home » Tabulatury i chwyty » D » Dżem » Gonić Ciebie

Dżem - Gonić Ciebie Tab

Intro:

E|-------------------------------------------------------------------|
H|-------------------------------------------------------------------|
G|-------------------------------------------------------------------|
D|-----------4----------5----------2---2h4p2------2---------2--------|
A|--------2----------3----------2--------------2-------5----0--------|
E|-----0----------0----------0-------------------------3---------3---|

E|---------------------------------------------------------------------|
H|---------------------------------------------------------------------|
G|---------------------------------------------------------------------|
D|-----------4----------5/7/5--------2---2h4p2------2----5----7----5---|
A|--------2----------3------------2--------------2-------3----5----3---|
E|-----0----------0------------0---------------------------------------|



       e    G    A    H         1 |         2 |
E|------------------------|-------|-----------|
H|------------------------|-------|-----------|
G|---------------2----4---|-------|-----------|
D|-----2----0----2----4---|-------|-----------|
A|-----2----2----0----2---|-------|---3-3-2---|
E|-----0----3-------------|---3b--|-----------|


Zwrotka:

E|------------------------------|
H|------------------------------|
G|------------------------------|
D|------------2-----4--5/4------|
A|----2---5---0---0h2--3/2p0----|
E|----0---3---------------------|

E|----------------------------------|
H|----------------------------------|
G|----------------------------------|      przed refrenem
D|------------2---4---5---7---4-----|
A|----2---5---0---2---3---5---2-----|
E|----0---3-------------------------|


Refren:
                  x2                x2     koniec refrenu
E|------------------|-----------------|----------|
H|------------------|-----------------|----------|
G|------------------|-----------------|----------|
D|----2--2------2---|-----------------|-----4----|
A|----0--0------0---|---2--2-----2----|-----2----|
E|----------3-------|---0--0--3--0----|----------|

Taby i akordy do Gonić Ciebie - Dżem . Znajdź najlepsze gitarowe chwyty do Gonić Ciebie. Zagraj Dżem Gonić Ciebie chords.

Skomentuj Dżem - Gonić Ciebie Tab
  • (will not be published)