Home » Tabulatury i chwyty » D » Dżem » Ja Wiem, Obojętność

Dżem - Ja Wiem, Obojętność Tab


Wstęp:

-----------------------------------------------------------------------
------------8----------------------------------------------------------
-6-6p4-----------7p9h7---------7s9------6p4----------5nh---9p7---------
------6---------------9-9p7----------------6-6p4----5nh-------9-9p7----
-------7--7----------------10--------7----------7------------------10--
-------------------------------------5-------------5nh-----------------

------------------------------------------------------------
------------------------------------------------------------
-7-9----6-6p4-----------------------------------------------
-------------6----------------------------------------------
------7-----------------------------------------------------
------------------------------------------------------------


Przed zwrotką i zwrotki:
-------------------------------------------------------------
-----------5p3-----------------------------------------------
-----4-(2)----4---2-4-2--------------------------------------
-4-6-2-(0)-----6--0-2-2-0p2-2-2------------------------------
-2-4------------------0--------------------------------------
-------------------------------------------------------------


Refreny:

--------------------------------------------------------------
-----------------------------------------------------0--------
-------------------9-7------------------------------0---------
-----5---7--7------9-7-------------9----9---------------------
-----5-5-7---------7-5--10-10p9----9-------5-5p4--2-----------
-0-2-3-3-5---5-7-8-------------10--7--7---------5-0-----------

Taby i akordy do Ja Wiem, Obojętność - Dżem . Znajdź najlepsze gitarowe chwyty do Ja Wiem, Obojętność. Zagraj Dżem Ja Wiem, Obojętność chords.

Skomentuj Dżem - Ja Wiem, Obojętność Tab
  • (will not be published)