Home » Tabulatury i chwyty » D » Dżem » Jak Malowany Ptak

Dżem - Jak Malowany Ptak Tab

Intro/Zwrotka:  

        ~~           ~~          ~~            ~~
E|---------------------------------------------------------------|
H|---------------------------------------------------------------|
G|-----2---2-----2--5---5-----5--5---5-----5--5---5-----5\4------|
D|-----2---2-----2--5---5-----5--4---4-----4--3---3-----3\2------|
A|---------------------------------------------------------------|
E|---------------------------------------------------------------|

E|--------------------|
H|--------------------|
G|--------------------|      przejście
D|--------------------|
A|-----3--2-----------|
E|-----------3--------|

Refren:

       A5              E5              F5              G5
E|-------------------------------------------------------------------------|
H|-------------------------------------------------------------------------|
G|-----2-------------------------------------------------------------------|
D|-----2---------------2---------------3---------------5-------------------|
A|-----0----0--2--3----2----3--2-------3----3--2--0----5----3--2--0--------|
E|---------------------0----------3----1---------------3-------------3-----|

Taby i akordy do Jak Malowany Ptak - Dżem . Znajdź najlepsze gitarowe chwyty do Jak Malowany Ptak. Zagraj Dżem Jak Malowany Ptak chords.

Skomentuj Dżem - Jak Malowany Ptak Tab
  • (will not be published)