Home » Tabulatury i chwyty » D » Dżem » Jesiony

Dżem - Jesiony Bas Tab Chords

Gitara basowa:
   
    G          C            G           C
G|------------------------|-------------------------|
D|------------------------|-------------------------|
A|-------2-----3--3-------|-------2-----3--3--------|
E|--3-------3----------0--|--3-------3--------0--2--|


Gitara:
    C          G
E|------------------|
H|------------------|
G|--5----5--3-------|
D|--5----5--3--5----|
A|-------------5----|
E|------------------|



Te same mury od rana...      G  C

[solo git]   GC /x3  G  

To samo miejsce już od lat... G C

[solo git dlugie]

Z nadzieją patrzysz na kufla dno... G C

I znów wychodzisz...      C  G
Z przybitą do...          C  G
Szukasz gdzieś...         e  D  C  G
Wokół ściany...           C  C

Zamknięte w krąg       G  C   /x4

[solo git]

C  G
C  G
e  D  C  G
C  C  [wyciszenie ? same solo]

A wokół tylko ściany 	G  C   /x4

e  D  C  G      /x4

G C D    G   [zak]

Taby i akordy do Jesiony - Dżem . Znajdź najlepsze gitarowe chwyty do Jesiony. Zagraj Dżem Jesiony chords.

Skomentuj Dżem - Jesiony Bas Tab Chords
  • (will not be published)