Home » Tabulatury i chwyty » D » Dżem » Oh Słodka

Dżem - Oh Słodka Tab Chords

E|---------------------------------|
H|---------------------------------|
G|---------------------------------|
D|---------------------------------|
A|-----------------------------3---|
E|----5---5-5---5-5---5--5--3------|

 

E|--------------------------------------------------------------------|
H|--------------------------------------------------------------------|
G---------------------------------------------------------------------|
D|---7--7-7--7-7--7------------9-10-7---7-5------9-10-7---7-5---5/6---|
A|---5--5-5--5-5--5----7-8-10-----------5-3---10----------5-3---3/4---|
E|--------------------------------------------------------------------|



 

Cmaj7 E7sus4   Asus2

Taby i akordy do Oh Słodka - Dżem . Znajdź najlepsze gitarowe chwyty do Oh Słodka. Zagraj Dżem Oh Słodka chords.

Skomentuj Dżem - Oh Słodka Tab Chords
  • (will not be published)