Home » Tabulatury i chwyty » D » Dżem » Ostatnie Widzenie

Dżem - Ostatnie Widzenie Tab Chords

Zwrotka:

    Am(7)          G             D/F#        F   
E|----------------------------------------------------------------|
H|----------------------------------------------------------------|
G|---------0------------------------------------------------------|
D|------2-----2----------0------------0-------3-----------2-------|
A|---0----------0-----2-----2-------0---0-----3------3/5----3p2---|
E|-----------------3----------3-0-2-------0---1---1---------------|


    Am           C            D/F#          C
E|----------------------------------------------------------|
H|----------------------------------------------------------|
G|--------0------------0-------------0-------------0--------|
D|-----2----2-------2-----2-------4-----4-------2-----2-----|
A|--0---------0--3----------3--5----------5--3----------3---|
E|----------------------------------------------------------|

 

Solo akustyk:
 
     A
E|--------------------------------------------------------------------------------|
H|------3p2--------------0h1--0---------------------------------------------------|
G|----------2------------0------0-------2---4---2--------------2------------------|
D|---2--------2-------------------0-----0---0-----0---------3---------------5-----|
A|---0----------------------------------------------0---3----------------5--------|
E|----------------0-3-----------------------------------------------1/3-----------|

 

Refren:

     A5             G5         D5         F5  G5    
E|--------------|----------|----------|-----------|
H|--------------|----------|----------|-----------|
G|----2---------|----------|---7--7---|-----------|
D|----2-----2---|---5--5---|---7--7---|---3---5---|
A|----0--0-3----|---5--5---|---5--5---|---3---5---|
E|--------------|---3--3---|----------|---1---3---|


Taby i akordy do Ostatnie Widzenie - Dżem . Znajdź najlepsze gitarowe chwyty do Ostatnie Widzenie. Zagraj Dżem Ostatnie Widzenie chords.

Skomentuj Dżem - Ostatnie Widzenie Tab Chords
  • (will not be published)