Home » Tabulatury i chwyty » D » Dżem » Zapal Świeczkę

Dżem - Zapal Świeczkę Tab Chords

Zwrotka:

   Am                C                           Dsus2             
E|-----------------|--------------------------|----------------|----------------------|
H|-----------------|---------------------1----|---------3------|----------------------|
G|---------2-------|-----------0--------------|------2---------|--------0-------------|
D|------2-----2----|--------2-----0h2---------|---0------------|---0h2-----2p0--------|
A|---0-------------|---3----------------------|----------------|-----------------3----|
E|-----------------|--------------------------|----------------|----------------------|

      F       G
...wciąż rozbrzmiewa śmiech


 


Refren:

F G Am C (Cadd9)   x3

               A                            C     Dsus2
          E|---------------------------|----0-----0----|
          H|------------2h3p2----------|----1-----3----|
F G       G|---------2---------2-------|----0-----2----|
          D|------2---------------2----|----2-----0----|
          A|---0-----------------------|----3----------|
          E|---------------------------|---------------|



Taby i akordy do Zapal Świeczkę - Dżem . Znajdź najlepsze gitarowe chwyty do Zapal Świeczkę. Zagraj Dżem Zapal Świeczkę chords.

Skomentuj Dżem - Zapal Świeczkę Tab Chords
  • (will not be published)