Home » Tabulatury i chwyty » E » Ed Sheeran » Autumn Leaves

Ed Sheeran - Autumn Leaves Tab


kap. II

Zwrotka:

E|----------------------------------------------|
H|-------3--------3--------3--------3-----------|
G|-----0---0----0---0----0---0----0---3---------|
D|----------------------------------------------|
A|------------------------------3---------------|
E|---0--------2--------3------------------------|


Refren:

E|----------------------------------------------|
H|-------3--------3--------3--------3-----------|
G|-----0---0----0---0----0---0----0---3---------|
D|----------------------------------------------|
A|------------------------------3---------------|
E|---3--------2--------0------------------------|

Taby i akordy do Autumn Leaves - Ed Sheeran . Znajdź najlepsze gitarowe chwyty do Autumn Leaves. Zagraj Ed Sheeran Autumn Leaves chords.

Skomentuj Ed Sheeran - Autumn Leaves Tab
  • (will not be published)