Five Finger Death Punch - Bleeding Tab


Dropped C

	
D|--------------------------------------------------------|
A|--------------------------------------------------------|
F|----------14-------15-------14-------12-------12h14-----|
C|----10/12----12-12----12-12----12-12----12-12-----------|
G|--------------------------------------------------------|
C|--------------------------------------------------------|

D|--------------------------------------------------------|
A|--------------------------------------------------------|
F|-------14-------15-------14-------12-------12h14p12-----|
C|----12----12-12----12-12----12-12----12-12--------------|
G|--------------------------------------------------------|
C|--------------------------------------------------------|

D|-----------------------------------------------|
A|-----------------------------------------------|
F|-----------------------------------------------|
C|--------10-----10-----10-----10----10----------|
G|----8-8----8-8----8-8----8-8-----8----8--------|
C|-----------------------------------------------|

D|--------------------------------------------------------|
A|--------------------------------------------------------|
F|--------------------------------------------------------|
C|----------12-------12-------12-------12-----12----------|
G|----10-10----10-10----10-10----10-10-----10----10-------|
C|--------------------------------------------------------|	

Taby i akordy do Bleeding - Five Finger Death Punch . Znajdź najlepsze gitarowe chwyty do Bleeding. Zagraj Five Finger Death Punch Bleeding chords.

Skomentuj Five Finger Death Punch - Bleeding Tab
  • (will not be published)