Home » Tabulatury i chwyty » F » Foo Fighters » Alone And Easy Target

Foo Fighters - Alone And Easy Target Tab


 Intro/Verse:

e:-------------3---2---3---2---3---2---|
B:-------------2---2---2---2---2---2---|
G:-------------------------------------|
D:-0---0-------------------------------|
A:-0---0---0---------------------------|
D:-0-------0---------------------------|


e:-------------2-------------------0---|
B:-------------2-------------------0---|
G:-------------------------------------|
D:-4---4---------------2---2-----------|
A:-4---4---4-----------2---2---2-------|
D:-4---4---4-----------2---2---2-------|




   Chorus:

e:-----------------------------------------------------------------|
B:-----------------------------------------------------------------|
G:-----------------------------------------------------------------|
D:-0---0---0---3---5---5---5---3---0---0---0---3---7---7---7---7---|
A:-0---0---0---3---5---5---5---3---0---0---0---3---7---7---7---7---|
D:-0---0---0---3---5---5---5---3---0---0---0---3---7---7---7---7---|
      Head    is   on                 I  want      out.


e:---------------------------|---------------------------|
B:---------------------------|---------------------------|
G:---------------------------|---------------------------|
D:-3------3---3------3---3---|-10-----10--10-----10--10--|
A:-3------3---3------3---3---|-10-----10--10-----10--10--|
D:-3------3---3------3---3---|-10-----10--10-----10--10--|
   I'm  alone     and I'm an   easy target..




  Bridge:

e:------------------------------------------------|
B:------------------------------------------------|
G:------------------------------------------------|    x3
D:-5--5--5--5---5--5--5--5---5--5--5--5---5--7~~--|
A:-5--5--5--5---5--5--5--5---5--5--5--5---5--7~~--|
D:-5--5--5--5---5--5--5--5---5--5--5--5---5--7~~--|
                Did     you     ever    listen?


e:-------------------------------------------------|
B:-------------------------------------------------|
G:-------------------------------------------------|
D:-7--7--7--7---7--7--7--7---7--7--7--7---7--10~~--|     x4
A:-7--7--7--7---7--7--7--7---7--7--7--7---7--10~~--|
D:-7--7--7--7---7--7--7--7---7--7--7--7---7--10~~--|
            Get out!    Get out!      Get out!

Taby i akordy do Alone And Easy Target - Foo Fighters . Znajdź najlepsze gitarowe chwyty do Alone And Easy Target. Zagraj Foo Fighters Alone And Easy Target chords.

Skomentuj Foo Fighters - Alone And Easy Target Tab
  • (will not be published)