Foo Fighters - Statues Tab Chords


Opening Lick/ Interlude
(The Vibrato's are subtle)

e||------------------------------------8~-10~-------------------------||
B||-10~--10b--10p8~--------10br----------------10~---10b--10p8~-------||
G||--------------------9p7--------------------------------------------||
D||-------------------------------------------------------------------||
A||-------------------------------------------------------------------||
E||-------------------------------------------------------------------||



Intro Chords (Opening Lick)

     D     D     C     C     G     G     F     F
e||--2---- 3-----3-----3-----3-----1-----1-------|
B||--3-----3-----1-----1-----3-----3-----1-----1-|
G||--2-----2-----0-----0-----0-----0-----2-----2-|
D||--0-----0-----2-----2-----0-----0-----3-----3-|
A||--------------3-----3-----2-----2-----3-----3-|
E||--------------------------3-----3-----1-----1-|
     D     D     C     C
e||--2-----2-----3-----3-||
B||--3-----3-----1-----1-||
G||--2-----2-----0-----0-||
D||--0-----0-----2-----2-||
A||--------------3-----3-||
E||----------------------||



Verse (Verse Intro)

e||--3-----3-|
B||--3-----3-|
G||--0-----0-|
D||--0-----0-|
A||--2-----2-|
E||--3-----3-|

Verse (Vocals set in)
     G     F     Em    C     G     F     Em    C
e||--3-----1-----0-----3-----3-----1-----0-----3-||
B||--3-----1-----0-----1-----3-----1-----0-----1-||
G||--0-----2-----0-----0-----0-----2-----0-----0-||
D||--0-----3-----2-----2-----0-----3-----2-----2-||
A||--2-----3-----2-----3-----2-----3-----2-----3-||
E||--3-----1-----0-----------3-----1-----0-------||

"You and I, we're too old and tortured souls.."


Chorus
     D     C     G     G     D     C     G     G
e||--2-----3-----3-----3-----2-----3-----3-----3-||
B||--3-----1-----3-----3-----3-----1-----3-----3-||
G||--2-----0-----0-----0-----2-----0-----0-----0-||
D||--0-----2-----0-----0-----0-----2-----0-----0-||
A||--------3-----2-----2-----------3-----2-----2-||
E||--------------3-----3-----------------3-----3-||

"We're just ordinary people..."


Bridge
     Am    C     G     D     Am    C     G     D
e||--0-----3-----3-----2-----0-----3-----3-----2-||
B||--1-----1-----3-----3-----1-----1-----3-----3-||
G||--2-----0-----0-----2-----2-----0-----0-----2-||
D||--2-----2-----0-----0-----2-----2-----0-----0-||
A||--0-----3-----2-----------0-----3-----2-------||
E||--------------3-----------------------3-------||

"Our bones forever in stone..."


Solo (Bridge Chords)

e||------------------------------|
B||------------------------------|
G||------------------------------|
D||--7--7-9-10--10-9-7-9--10-9-7-|
A||------------------------------|
E||------------------------------|

e||----------------------------------||
B||----------------------------------||
G||-------------8-9-7----------------||
D||--7--7-9-10--------10-9--10-9-7---||
A||--------------------------------10||
E||----------------------------------||

Taby i akordy do Statues - Foo Fighters . Znajdź najlepsze gitarowe chwyty do Statues. Zagraj Foo Fighters Statues chords.

Skomentuj Foo Fighters - Statues Tab Chords
  • (will not be published)