Home » Tabulatury i chwyty » F » Foo Fighters » The Pretender

Foo Fighters - The Pretender Tab


Intro
(Gtr. 1, clean)
e||----------7------------------------------------------------0--------||
B||--------10-10--------10---10---10--------10--------------10-10------||
G||-------9-----9-------9----9----9--------9---------------9-----9----(x2)
D||-----10-------10-----10---10---10-----10--------------10-------10---||
A||---0-------------0-----------0-----9---------9b10-9-8---------------||
E||-------------------7----8-------------------------------------------||

e||----------7--------------------------------------------------||
B||--------10-10--------10---10---10--------10--------------10--||
G||-------9-----9-------9----9----9--------9---------------9----||
D||-----10-------10-----10---10---10-----10--------------10-----||
A||---0-------------0-----------0-----9---------9b10-9-8--------||
E||-------------------7----8------------------------------------||


Intro Part 2
(Gtr. 1, dist.)
e||--0-0-2-0-3-0-5-0---0-2-0-3-0-5--||
B||--5-5-5-5-5-5-5-5---5-5-5-5-5-5--||
G||---------------------------------||
D||---------------------------------||
A||---------------------------------||
E||---------------------------------||


Verse
 (Gtr. 2)
e||--0-0---------0-0-0-0-------------|--0-0----------0-0-0-0-----------||
B||--1-1---------1-1-1-1-------------|--1-1----------1-1-1-1-----------||
G||--2-2---------2-2-2-2-------------|--2-2----------2-2-2-2-----------||
D||--2-2---------2-2-2-2-------------|--2-2----------2-2-2-2-----------||
A||--0-0---------0-0-0-0-------------|--0-0----------0-0-0-0-----------||
E||----------------------------------|---------------------------------||

e||--0-0---------0-0-0-0-------------|--0-0----------0-0-0-0-----------||
B||--3-3---------3-3-3-3-------------|--1-1----------1-1-1-1-----------||
G||--2-2---------2-2-2-2-------------|--0-0----------0-0-0-0-----------||
D||--0-0---------0-0-0-0-------------|--3-3----------3-3-3-3-----------||
A||--0-0---------0-0-0-0-------------|--3-3----------3-3-3-3-----------||
E||--2-2---------2-2-2-2-------------|--1-1----------1-1-1-1-----------||

 (last 8 bars of verse, palm muted)
e||--0-0-0-0-0-0-0-0-0-0-0-0-0-0-0-0-|-0-0-0-0-0-0-0-0-0-0-0-0-0-0-0-0-||
B||--1-1-1-1-1-1-1-1-1-1-1-1-1-1-1-1-|-1-1-1-1-1-1-1-1-1-1-1-1-1-1-1-1-||
G||--2-2-2-2-2-2-2-2-2-2-2-2-2-2-2-2-|-2-2-2-2-2-2-2-2-2-2-2-2-2-2-2-2-||
D||--2-2-2-2-2-2-2-2-2-2-2-2-2-2-2-2-|-2-2-2-2-2-2-2-2-2-2-2-2-2-2-2-2-||
A||--0-0-0-0-0-0-0-0-0-0-0-0-0-0-0-0-|-0-0-0-0-0-0-0-0-0-0-0-0-0-0-0-0-||
E||----------------------------------|---------------------------------||

e||--0-0-0-0-0-0-0-0-0-0-0-0-0-0-0-0-|-0-0-0-0-0-0-0-0-0-0-0-0-0-0-0-0-||
B||--3-3-3-3-3-3-3-3-3-3-3-3-3-3-3-3-|-1-1-1-1-1-1-1-1-1-1-1-1-1-1-1-1-||
G||--2-2-2-2-2-2-2-2-2-2-2-2-2-2-2-2-|-0-0-0-0-0-0-0-0-0-0-0-0-0-0-0-0-||
D||--0-0-0-0-0-0-0-0-0-0-0-0-0-0-0-0-|-3-3-3-3-3-3-3-3-3-3-3-3-3-3-3-3-||
A||--0-0-0-0-0-0-0-0-0-0-0-0-0-0-0-0-|-3-3-3-3-3-3-3-3-3-3-3-3-3-3-3-3-||
E||--2-2-2-2-2-2-2-2-2-2-2-2-2-2-2-2-|-1-1-1-1-1-1-1-1-1-1-1-1-1-1-1-1-||


Pre-Chorus ("Same old story")
e||------------------------------------------||
B||------------------------------------------||
G||--7-7-7-7-9-9-9-9-11-11-11-11-12-12-12-12-||
D||--x-x-x-x-x-x-x-x-x--x--x--x--x--x--x--x--||
A||--5-5-5-5-7-7-7-7-9--9--9--9--10-10-10-10-||
E||------------------------------------------||


Chorus
(Gtr. 1)
e||--0-0-0-0-0-0-0-0-0-0-0-0-0-0-0-0--||
B||--1-1-1-1-1-1-1-1-1-1-1-1-1-1-1-1--||
G||--2-2-2-2-2-2-2-2-2-2-2-2-2-2-2-2-(x4)
D||--2-2-2-2-2-2-2-2-2-2-2-2-2-2-2-2--||
A||-----------------------------------||
E||-----------------------------------||

(Gtr. 2)
e||--0--0--0--0--0--0--0--0--0--0--0--0--0--0--0--0-||
B||-10-10-10-10-10-10-10-10-10-10-10-10-10-10-10-10-||
G||--9--9--9--9--9--9--9--9--9--9--9--9--9--9--9--9-||
D||-10-10-10-10-10-10-10-10-10-10-10-10-10-10-10-10-||
A||--0--0--0--0--0--0--0--0--0--0--0--0--0--0--0--0-||
E||-------------------------------------------------||

e||--0--0--0--0--0--0--0--0--0--0--0--0--0--0--0--0-||
B||-10-10-10-10-10-10-10-10-10-10-10-10-10-10-10-10-||
G||--9--9--9--9--9--9--9--9--9--9--9--9--9--9--9--9-||
D||-10-10-10-10-10-10-10-10-10-10-10-10-10-10-10-10-||
A||--0--0--0--0--X--X--X--X--X--X--X--X--0--0--0--0-||
E||--------------7--7--7--7--8--8--8--8--X--X--X--X-||

e||--0--0--0--0--0--0--0--0--0--0--0--0--0--0--0--0-||
B||-10-10-10-10-10-10-10-10-10-10-10-10-10-10-10-10-||
G||--9--9--9--9--9--9--9--9--9--9--9--9--9--9--9--9-||
D||-10-10-10-10-10-10-10-10-10-10-10-10-10-10-10-10-||
A||--9--9--9--9--9--9--9--9--9--9--9--9--9--9--9--9-||
E||-------------------------------------------------||

e||--0--0--0--0--0--0--0--0--0--0--0--0--0--0--0--0-||
B||-10-10-10-10-10-10-10-10-10-10-10-10-10-10-10-10-||
G||--9--9--9--9--9--9--9--9--9--9--9--9--9--9--9--9-||
D||-10-10-10-10-10-10-10-10-10-10-10-10-10-10-10-10-||
A||--8--8--8--8--8--8--8--8--8--8--8--8--8--8--8--8-||
E||-------------------------------------------------||


Bridge Riff (i.e. 2'39)
e||----------------------------------||
B||----------------------------------||
G||----------------2-----X-----------||
D||--2-X-4-X-5-X-4-2-X-X-4-X-5-X-7\2-||
A||--0-0-0-0-0-0-0-0-0-0-0-0-0-0-0---||
E||----------------------------------||


Bridge 2 ("I'm what's left, I'm whats right...")
e||--------------------------||-------------------------||
B||-------------------------(x4)-----------------------(x4)
G||--------------------------||-------------------------||
D||--10----10-9--X--7--5--X--||-12----12-10-X--9--10----||
A||--0--0--0--0--0--0--0--0--||-0--0--0--0--0--0--0--0--||
E||--------------------------||-------------------------||

(So who, are you ...)
e||--------------------------||
B||-------------------------(x8)
G||-----------12-X--14-X-----||
D||--14----14-X--X--X--12----||
A||--0--0--0--0--0--0--0--0--||
E||--------------------------||

Taby i akordy do The Pretender - Foo Fighters . Znajdź najlepsze gitarowe chwyty do The Pretender. Zagraj Foo Fighters The Pretender chords.

Skomentuj Foo Fighters - The Pretender Tab
  • (will not be published)