Home » Tabulatury i chwyty » F » Foo Fighters » Tired Of You

Foo Fighters - Tired Of You Tab Chords


    Gm  F  Bb A  Gm F  Bb A  Gm C  Gm C  Gm F  Eb D
e|-----------------------------------------------------
B|-----------------------------------------------------
G|------------------------------5-----5----------------
D|--5---3--8--7--5--3--8--7--5--5--5--5--5--3--1--0----
A|--5---3--8--7--5--3--8--7--5--3--5--3--5--3--1--0----
E|--5---3--8--7--5--3--8--7--5-----5-----5--3--1--0----

chorus:
    Gm F  Eb D  Gm F  Eb D
e|-----------------------------------------------------
B|-----------------------------------------------------
G|-----------------------------------------------------
D|--5--3--1--0--5--3--1--0-----------------------------
A|--5--3--1--0--5--3--1--0-----------------------------
E|--5--3--1--0--5--3--1--0-----------------------------

verse2:
    Gm                        F
e|-----3-----5------3-----5-------1---1----------------
B|---3---3---3----3---3---3-----1---1-1----------------
G|-3-------3-3--3-------3-3---2-------0^2--------------
D|-----------------------------------------------------
A|-----------------------------------------------------
E|-----------------------------------------------------

   Bb        A        Gm                      F
e|---3-------2------------3----------3---5--------1---1----
B|-4---4-------1--------3---3------3---3-3------1---1-1----
G|-------3-------0----3-------3--3-------3----2-------0^2--
D|---------------------------------------------------------
A|---------------------------------------------------------
E|---------------------------------------------------------

   Bb        A        G   C        G   C       G
e|---3-------2--------3---3-3------3---3-3-----5--3----
B|-4---4-------1------3---5---5----3---5---5---3-------
G|-------3-------0----3---5-----5--3---5-----5-3-------
D|-----------------------------------------------------
A|-----------------------------------------------------
E|-----------------------------------------------------

   F        Eb     D
e|-1-1------3------3--2--------------------------------
B|-1---1------4----3-----------------------------------
G|-2-----2------3--2-----------------------------------
D|-----------------------------------------------------
A|-----------------------2-4-5--1-4-3-1----------------
E|-----------------------------------------------------

chorus:
   G                F                Eb      D
e|-3-3-----3-3------1-1-----1-1------3-3-----2-2-----
B|-3---3---3---3----1---1---1---1----4---4---3---3---
G|-3-----3-3-----3--2-----2-2-----2--3-----3-2-----2-
D|---------------------------------------------------
A|---------------------------------------------------
E|---------------------------------------------------

next bit:
    C               G              C                 Eb       D
e|--3-3-3---3-3-----3-3-----3-5-3--3-3----3-3-3------3-3------2-2--------
B|--5-5-5-5-5---5---3---3---3------5---5----5---5----4---4----3---3------
G|--5-5-5---5-----5-3-----3-3------5-----5--5-----5--3-----3--2-----2----
D|-----------------------------------------------------------------------
A|-----------------------------------------------------------------------
E|-----------------------------------------------------------------------

outro:
   Gm                              F
e|-------------------------------------------
B|-------------------------------------------
G|-------------------------------------------
D|-5-5-5-5-5-5-5-5-5-5-5-5-5-5-5-5-3---------
A|-5-5-5-5-5-5-5-5-5-5-5-5-5-5-5-5-3---------
E|-5-5-5-5-5-5-5-5-5-5-5-5-5-5-5-5-3---------

e|-----3---3---------3------5------3-----
B|---3---3-3-------3---3----3--3-6---6---
G|-3-------3-----3-------3--3------------
D|---------------------------------------
A|---------------------------------------
E|---------------------------------------

Taby i akordy do Tired Of You - Foo Fighters . Znajdź najlepsze gitarowe chwyty do Tired Of You. Zagraj Foo Fighters Tired Of You chords.

Skomentuj Foo Fighters - Tired Of You Tab Chords
  • (will not be published)