Home » Tabulatury i chwyty » G » Gavin DeGraw » I Dont Want To Be

Gavin DeGraw - I Dont Want To Be Tab



Intro:

e|----------------------------|
B|----------------------------|
G|----------------------------|
D|----------------------------|
A|-1-3--1-3--1-3--1-3--1-1-3--|
E|----------------------------|


Zwrotka:

e|---------|
B|---1---3-|
G|-3-0---3-|
D|-3-----3-|    x8
A|---------|
E|---------|


Refren:

e|-4-6-1-3-1|
B|-4-8-3-4-3|
G|-5-8-3-5-3|
D|-6-8-3-5-3|
A|-6-6-1-3-1|
E|-4--------|

Taby i akordy do I Dont Want To Be - Gavin DeGraw . Znajdź najlepsze gitarowe chwyty do I Dont Want To Be. Zagraj Gavin DeGraw I Dont Want To Be chords.

Zobacz inne opracowania Gavin DeGraw
    Skomentuj Gavin DeGraw - I Dont Want To Be Tab
    • (will not be published)