Home » Tabulatury i chwyty » G » Godsmack » Keep Away

Godsmack - Keep Away Tab



Intro:


E :| ---------------- |
B :| ---------------- |
G :|*7-77-77-77-77777*|
D :|*x-xx-xx-xx-xxxxx*|
A :| 5-55-55-55-55555 |
D :| ---------------- |



Przed zwrotkowy riff:


E :| ----------------|---------------- |
B :| ----------------|---------------- |
G :|*----------------|----------------*|
D :|*0---0-----3-3---|--5-5-5-6---53--*|
A :| 0---0-00033-3-xx|xx5-5-556-6653-- |
D :| 0---0-00033-3-xx|xx5-5-556-6653-- |


Główny riff:

E :| ----------------|---------------- |
B :| ----------------|---------------- |
G :|*----------------|----------------*|
D :|*0---0-----3-3---|--5-5-5-6---53--*|
A :| 0---0---033-3---|xx5-5-5-6-6653-- |
D :| 0---0---033-3---|xx5-5-5-6-6653-- | 



Refren:

E :|----------------|----------------|----------------|----------------|
B :|3---3-33333-3-33|----------------|3---3-33333-3-33|----------------|
G :|2---2-22220-0-00|2-2-2-222x3-3-33|2---2-22220-0-00|----------------|
D :|0---0-0000x-x-xx|2-2-2-222x3-3-33|0---0-0000x-x-xx|7-7-7-778\\\\\\\|
A :|0---0-00003-3-33|0-0-0-000x1-1-11|0---0-00003-3-33|7-7-7-778\\\\\\\|
D :|0---0-0000------|----------------|0---0-0000------|7-7-7-778\\\\\\\|


Bridge:

E :|----------------| --Play-16x------ |
B :|----------------| ---------------- |
G :|----------------|*77777-77777-----*|
D :|0---------------|*77777-66666-----*|
A :|0---------------| 55555-55555----- |
D :|0---------------| ---------------- |

Taby i akordy do Keep Away - Godsmack . Znajdź najlepsze gitarowe chwyty do Keep Away. Zagraj Godsmack Keep Away chords.

Skomentuj Godsmack - Keep Away Tab
  • (will not be published)