Home » Tabulatury i chwyty » G » Godsmack » Re-Align

Godsmack - Re-Align Tab

drop. C

Intro/zwrotka:

|---------------------------------------|
|---3--3--3-3--3------------------------|
|---2--2--2-2--2------------------------|
|---0--0--0-0--0---3--3--3-3-8-8-8--8---|
|---0--0--0-0--0---3--3--3-3-8-8-8--8---|
|---0--0--0-0--0---3--3--3-3-8-8-8--8---|

|------------------------------------|
|---3--3--3-3--3---------------------|
|---2--2--2-2--2---------------------|
|---0--0--0-0--0---8--8--8-8--3--1---|
|---0--0--0-0--0---8--8--8-8--3--1---|
|---0--0--0-0--0---8--8--8-8--3--1---|


Refren:

|-----------------------------------------------------------|
|-----------------------------------------------------------|
|--7-777-77-7-7--5-555-55-5-5--3-333-33-3-3--5-555-55-5-5---|
|--7-777-77-7-7--5-555-55-5-5--3-333-33-3-3--5-555-55-5-5---|
|--5-555-55-5-5--3-333-33-3-3--1-111-11-1-1--3-333-33-3-3---|
|-----------------------------------------------------------|

|-----------------------------------------------------------------|
|-----------------------------------------------------------------|
|--7-777-77-7-7--5-555-55-5-5--3-3-3-3-3-3-3-3--2-2-2-2-2---------|
|--7-777-77-7-7--5-555-55-5-5--3-3-3-3-3-3-3-3--2-2-2-2-2---------|
|--5-555-55-5-5--3-333-33-3-3--1-1-1-1-1-1-1-1--0-0-0-0-0--0-2-3--|
|----------------------------------------------------------0-2-3--|



Przed solo:

|---------------------------------------------------------|
|---------------------------------------------------------|
|---------------------------------------------------------|
|---------------------------------------------------------|
|--0-2-3-3-2-xxx-0-0--0-2-3-3-0-xxx-0--0-2-3-3-2-xxx-0-0--|
|--0-2-3-3-2-xxx-0-0--0-2-3-3-0-xxx-0--0-2-3-3-2-xxx-0-0--|

|-------------------------------------|
|-----10---------10------10----10-----|
|--12----12---10------12----12----12--|
|-------------------------------------|
|-------------------------------------|
|-------------------------------------|

Taby i akordy do Re-Align - Godsmack . Znajdź najlepsze gitarowe chwyty do Re-Align. Zagraj Godsmack Re-Align chords.

Skomentuj Godsmack - Re-Align Tab
  • (will not be published)