Home » Tabulatury i chwyty » G » Godsmack » Touche

Godsmack - Touche Tab Chords


drop. D#


Intro/przejście:

|-------------------------------|
|-------------------------------|
|---0h2---0h2---0h2---0h2---0h2-|
|-0-----0-----0-----0-----0-----|
|-------------------------------|
|-------------------------------|


Zwrotka:

D C   przejście



Refren:

F G  D

|---------------------------|-----------------|
|---------------------------|-----------------|
|---------------------------|-----------------|
|-3--3-3-x-3--x-3-3-3-3-3-3-|-3-5-5-5-0-5--3--|
|-3--3-3-x-3--x-3-3-3-3-3-3-|-3-5-5-5-0-5--3--|
|-3--3-3-x-3--x-3-3-3-3-3-3-|-3-5-5-5-0-5--3--|

Taby i akordy do Touche - Godsmack . Znajdź najlepsze gitarowe chwyty do Touche. Zagraj Godsmack Touche chords.

Skomentuj Godsmack - Touche Tab Chords
  • (will not be published)