Home » Tabulatury i chwyty » G » Godsmack » Voices

Godsmack - Voices Chords

Intro:

| E | D |  x4


Zwrotka:

| E G | C Dadd9 |

      Dadd9
   III   IV     V
E|-----|-----|-----|
H|--o--|-----|-----|
G|-----|-----|-----|
D|-----|--o--|-----|
A|-----|-----|--o--|
E|-----|-----|-----|

 

| A | D Dsus4 D Dsus2 D|  x2

| Cadd9 | H |
 
      A
E|---------7----|
H|----5---------|
G|----6---------|
D|----7---------|
A|--------------|
E|--------------|

Taby i akordy do Voices - Godsmack . Znajdź najlepsze gitarowe chwyty do Voices. Zagraj Godsmack Voices chords.

Skomentuj Godsmack - Voices Chords
  • (will not be published)